123GuitarTabs.com

The Best Guitar Forum On The Web!
 
 HomeHome  FAQFAQ  SearchSearch  MemberlistMemberlist  RegisterRegister  Log in  
Log in
Username:
Password:
Log in automatically: 
:: I forgot my password
Latest topics
» Well Then
Wed Nov 05, 2008 12:46 am by BassXRocker

» What Are You Listening To Right Now?
Mon Nov 03, 2008 6:17 pm by Starom

» Band names that would never make it
Mon Nov 03, 2008 6:16 pm by Starom

» Best, Good, Bad ( and maybe Worse)
Sun Oct 26, 2008 12:18 pm by Starom

» Tab requests
Tue Oct 21, 2008 8:52 pm by Buckethead

» Analog Recording
Wed Oct 15, 2008 10:15 pm by Blackdog7

» what now?
Wed Oct 15, 2008 10:10 pm by Blackdog7

» John Mayer
Wed Oct 15, 2008 12:43 am by Blackdog7

» Simple Man intro
Wed Oct 15, 2008 12:41 am by Blackdog7

Top posters
numberonejrio (373)
 
BassXRocker (294)
 
GuitarGod804 (239)
 
jimthams (231)
 
Buckethead (196)
 
Starom (182)
 
TheLonging (136)
 
Devil_panda (95)
 
Nizzi (62)
 
Blackdog7 (47)
 
Poll
Forums new look
Like it!
43%
 43% [ 3 ]
Change back to the old style!
57%
 57% [ 4 ]
Total Votes : 7
Search
 
 

Display results as :
 
Rechercher Advanced Search
Social bookmarking
Social bookmarking digg  Social bookmarking delicious  Social bookmarking reddit  Social bookmarking stumbleupon  Social bookmarking slashdot  Social bookmarking yahoo  Social bookmarking google  Social bookmarking blogmarks  Social bookmarking live      

Bookmark and share the address of 123guitartabs.com on your social bookmarking website

Bookmark and share the address of 123GuitarTabs.com on your social bookmarking website
Tuner

Share | 
 

 D.O.A. Tab- The Haunted

View previous topic View next topic Go down 
AuthorMessage
TheLonging
Moderator
avatar

Posts : 136
Join date : 2008-06-06
Age : 23

PostSubject: D.O.A. Tab- The Haunted   Sat Jun 07, 2008 1:29 am

Released in 2003, kick-ass song.

D.O.A.

D :--------------------------|---------------------------------|
A :--------------------------|---------------------------------|
F :--------------------------|---------------------------------|
C :--------------------------|---------------------------------|
G :--------------------------|---------------------------------|
D :0-0-0-0-0*0-0-0-0-0*0-0-0*|0-0-0-0-0*0-0-0-0-0-0*0-0-0-0-0-0|

D :--------------------------|---------------------------------|
A :--------------------------|---------------------------------|
F :--------------------------|---------------------------------|
C :--------------------------|---------------------------------|
G :--------------------------|---------------------------------|
D :0-0-0-0-0*0-0-0-0-0*0-0-0*|0-0-0-0-0*0-0-0-0-0-0*0-0-0-0-0-0|

============================================================================

D :--------------------------|-----------------------------|
A :--------------------------|-----------------------------|
F :--------------------------|-----------------------------|
C :--------------------------|----------------------------5|
G :--------------------------|----------------------5-7-8--|
D :0-0-0-0-0*0-0-0-0-0*0-0-0*|0-0-0-0-0*0-0-0-0-0-0*-------|

D :--------------------------|-----------------------------|
A :--------------------------|-----------------------------|
F :--------------------------|-----------------------------|
C :--------------------------|----------------------------5|
G :--------------------------|----------------------5-7-8--|
D :0-0-0-0-0*0-0-0-0-0*0-0-0*|0-0-0-0-0*0-0-0-0-0-0*-------|

============================================================================

D :--------------------------|---------------------------------|
A :--------------------------|---------------------------------|
F :--------------------------|---------------------------------|
C :--------------------------|---------------------------------|
G :--------------------------|---------------------------------|
D :0-0-0-0-0*0-0-0-0-0*0-0-0*|0-0-0-0-0*0-0-0-0-0-0*0-0-0-0-0-0|

D :--------------------------|---------------------------------|
A :--------------------------|---------------------------------|
F :--------------------------|---------------------------------|
C :--------------------------|---------------------------------|
G :--------------------------|---------------------------------|
D :0-0-0-0-0*0-0-0-0-0*0-0-0*|0-0-0-0-0*0-0-0-0-0-0*0-0-0-0-0-0|

============================================================================

D :--------------------------|-----------------------------|
A :--------------------------|-----------------------------|
F :--------------------------|-----------------------------|
C :--------------------------|----------------------------5|
G :--------------------------|----------------------5-7-8--|
D :0-0-0-0-0*0-0-0-0-0*0-0-0*|0-0-0-0-0*0-0-0-0-0-0*-------|

D :--------------------------|-----------------------------|
A :--------------------------|-----------------------------|
F :--------------------------|-----------------------------|
C :--------------------------|----------------------------5|
G :--------------------------|----------------------5-7-8--|
D :0-0-0-0-0*0-0-0-0-0*0-0-0*|0-0-0-0-0*0-0-0-0-0-0*-------|

============================================================================

D :-------------------------------|-------------------------------|
A :-------------------------------|-------------------------------|
F :-------------------------------|-------------------------------|
C :--------------5-------------5--|--------------5----------------|
G :--------5-7-8-----------5-7---8|--------5-7-8-----8------------|
D :0-0-0-0---------0-0-0-0--------|0-0-0-0---------0---0-6-0-3-2-1|

D :-------------------------------|-------------------------------|
A :-------------------------------|-------------------------------|
F :-------------------------------|-------------------------------|
C :--------------5-------------5--|--------------5----------------|
G :--------5-7-8-----------5-7---8|--------5-7-8-----8------------|
D :0-0-0-0---------0-0-0-0--------|0-0-0-0---------0---0-6-0-3-2-1|

============================================================================

D :-------------------------------|-------------------------------|
A :-------------------------------|-------------------------------|
F :-------------------------------|-------------------------------|
C :--------------5-------------5--|--------------5----------------|
G :--------5-7-8-----------5-7---8|--------5-7-8-----8------------|
D :0-0-0-0---------0-0-0-0--------|0-0-0-0---------0---0-6-0-3-2-1|

D :-------------------------------|-------------------------------|
A :-------------------------------|-------------------------------|
F :-------------------------------|-------------------------------|
C :--------------5-------------5--|--------------5----------------|
G :--------5-7-8-----------5-7---8|--------5-7-8-----8------------|
D :0-0-0-0---------0-0-0-0--------|0-0-0-0---------0---0-6-0-3-2-1|

============================================================================

D :----------|
A :----------|
F :----------|
C :5-5*-5-5*-|
G :5-5*-5-5*-|
D :3-3*-3-3*-|

D :----------|
A :----------|
F :----------|
C :5-5*-5-5*-|
G :5-5*-5-5*-|
D :3-3*-3-3*-|

============================================================================

D :---------------------------|------------------------------|
A :---------------------------|------------------------------|
F :---------------------------|------------------------------|
C :2-2-2-5-5-5-5-4-4-4-4-3-3-3|2-2-2-5-5-5-5-4-4-4-4--8--8--8|
G :2-2------------------------|2-2---------------------------|
D :0-0-0-3-3-3-3-2-2-2-2-1-1-1|0-0-0-3-3-3-3-2-2-2-2--6--6--6|

D :---------------------------|------------------------------|
A :---------------------------|------------------------------|
F :---------------------------|------------------------------|
C :2-2-2-5-5-5-5-4-4-4-4-3-3-3|2-2-2-9-9-9-9-8-8-8-8-12-12-12|
G :2-2------------------------|2-2---------------------------|
D :0-0-0-3-3-3-3-2-2-2-2-1-1-1|0-0-0-7-7-7-7-6-6-6-6-10-10-10|

============================================================================

D :---------------------------|-------------------|
A :---------------------------|-------------------|
F :---------------------------|-------------------|
C :2-2-2-5-5-5-5-4-4-4-4-3-3-3|3--6--10--9--6-9-6-|
G :2-2------------------------|3------------------|
D :0-0-0-3-3-3-3-2-2-2-2-1-1-1|1--4---8--7--4-7-4-|

D :---------------------------|-------------------|
A :---------------------------|-------------------|
F :---------------------------|-------------------|
C :2-2-2-5-5-5-5-4-4-4-4-3-3-3|3--6--10--9--6-9-6-|
G :2-2------------------------|3------------------|
D :0-0-0-3-3-3-3-2-2-2-2-1-1-1|1--4---8--7--4-7-4-|

============================================================================

D :---------------------------|------------------------------|
A :---------------------------|------------------------------|
F :---------------------------|------------------------------|
C :2-2-2-5-5-5-5-4-4-4-4-3-3-3|2-2-2-5-5-5-5-4-4-4-4--8--8--8|
G :2-2------------------------|2-2---------------------------|
D :0-0-0-3-3-3-3-2-2-2-2-1-1-1|0-0-0-3-3-3-3-2-2-2-2--6--6--6|

D :---------------------------|------------------------------|
A :---------------------------|------------------------------|
F :---------------------------|------------------------------|
C :2-2-2-5-5-5-5-4-4-4-4-3-3-3|2-2-2-9-9-9-9-8-8-8-8-12-12-12|
G :2-2------------------------|2-2---------------------------|
D :0-0-0-3-3-3-3-2-2-2-2-1-1-1|0-0-0-7-7-7-7-6-6-6-6-10-10-10|

============================================================================

D :---------------------------|----------------|
A :---------------------------|----------------|
F :---------------------------|----------------|
C :2-2-2-5-5-5-5-4-4-4-4-3-3-3|3--6--3--6--3---|
G :2-2------------------------|3-----------3---|
D :0-0-0-3-3-3-3-2-2-2-2-1-1-1|1--4--1--4--1---|

D :---------------------------|----------------|
A :---------------------------|----------------|
F :---------------------------|----------------|
C :2-2-2-5-5-5-5-4-4-4-4-3-3-3|3--6--3--6--3---|
G :2-2------------------------|3-----------3---|
D :0-0-0-3-3-3-3-2-2-2-2-1-1-1|1--4--1--4--1---|

============================================================================

D :-----------------------------------|
A :12---------------------------------|
F :19-----------9-9-9-10-9-9-17-9-16-9|
C :-----------------------------------|
G :-----------------------------------|
D :-----------------------------------|

D :-----------------------------------|
A :-----------------------------------|
F :-----------------------------------|
C :-----------------------------------|
G :-----------------------------------|
D :-0-0-0-0-0-0-0-0-*--0-0-0--0-1--1-1|

============================================================================

D :-----------------------------------------------------|
A :--------------------------15-------------------------|
F :14---9-16-9-17-9-16-17-16----17---16-14--------------|
C :----------------------------------------17-16--------|
G :-----------------------------------------------------|
D :-----------------------------------------------------|

D :-----------------------------------------------------|
A :-----------------------------------------------------|
F :-----------------------------------------------------|
C :-----------------------------------------------------|
G :-----------------------------------------------------|
D :-1-1-1--0-0--0-0--0--0-----*----0-----0--0--0-0-3-3-3|

============================================================================

D :12---0-0-10-0-0-13-0-12-0-17-0-16-t17-16-t17-16-t17-16-t17|
A :----------------------------------------------------------|
F :----------------------------------------------------------|
C :----------------------------------------------------------|
G :----------------------------------------------------------|
D :----------------------------------------------------------|

D :----------------------------------------------------------|
A :----------------------------------------------------------|
F :----------------------------------------------------------|
C :----------------------------------------------------------|
G :----------------------------------------------------------|
D :-3-3-3-3--0-0-0--0-0--*-0--0-0--0---0--1------1------1----|

============================================================================

D :-------------------------------------|
A :-------------------------------------|
F :-------------------------------------|
C :------------9-8----8-----------------|
G :13---\----------10---10--9-8-7-7-----|
D :-------------------------------------|

D :-------------------------------------|
A :-------------------------------------|
F :-------------------------------------|
C :-------------------------------------|
G :------------------------10-------10--|
D :-1-1--1-0-0-0-0--0-0--0--------0-----|

============================================================================

D :--------------------------|---------------------------------|
A :--------------------------|---------------------------------|
F :--------------------------|---------------------------------|
C :--------------------------|---------------------------------|
G :7------------------------*|---------------------------------|
D :--------------------------|0-0-0-0-0*0-0-0-0-0-0*0-0-0-0-0-0|

D :--------------------------|---------------------------------|
A :--------------------------|---------------------------------|
F :--------------------------|---------------------------------|
C :--------------------------|---------------------------------|
G :--------------------------|---------------------------------|
D :0-0-0-0-0*0-0-0-0-0*0-0-0*|0-0-0-0-0*0-0-0-0-0-0*0-0-0-0-0-0|

_________________
\(_o)/

123guitartabs.com
Back to top Go down
View user profile http://www.123guitartabs.com/
TheLonging
Moderator
avatar

Posts : 136
Join date : 2008-06-06
Age : 23

PostSubject: Re: D.O.A. Tab- The Haunted   Sat Jun 07, 2008 1:29 am

============================================================================

D :--------------------------|-----------------------------|
A :--------------------------|-----------------------------|
F :--------------------------|-----------------------------|
C :--------------------------|----------------------------5|
G :--------------------------|----------------------5-7-8--|
D :0-0-0-0-0*0-0-0-0-0*0-0-0*|0-0-0-0-0*0-0-0-0-0-0*-------|

D :--------------------------|-----------------------------|
A :--------------------------|-----------------------------|
F :--------------------------|-----------------------------|
C :--------------------------|----------------------------5|
G :--------------------------|----------------------5-7-8--|
D :0-0-0-0-0*0-0-0-0-0*0-0-0*|0-0-0-0-0*0-0-0-0-0-0*-------|

============================================================================

D :--------------------------|---------------------------------|
A :--------------------------|---------------------------------|
F :--------------------------|---------------------------------|
C :--------------------------|---------------------------------|
G :--------------------------|---------------------------------|
D :0-0-0-0-0*0-0-0-0-0*0-0-0*|0-0-0-0-0*0-0-0-0-0-0*0-0-0-0-0-0|

D :--------------------------|---------------------------------|
A :--------------------------|---------------------------------|
F :--------------------------|---------------------------------|
C :--------------------------|---------------------------------|
G :--------------------------|---------------------------------|
D :0-0-0-0-0*0-0-0-0-0*0-0-0*|0-0-0-0-0*0-0-0-0-0-0*0-0-0-0-0-0|

============================================================================

D :--------------------------|-----------------------------|
A :--------------------------|-----------------------------|
F :--------------------------|-----------------------------|
C :--------------------------|----------------------------5|
G :--------------------------|----------------------5-7-8--|
D :0-0-0-0-0*0-0-0-0-0*0-0-0*|0-0-0-0-0*0-0-0-0-0-0*-------|

D :--------------------------|-----------------------------|
A :--------------------------|-----------------------------|
F :--------------------------|-----------------------------|
C :--------------------------|----------------------------5|
G :--------------------------|----------------------5-7-8--|
D :0-0-0-0-0*0-0-0-0-0*0-0-0*|0-0-0-0-0*0-0-0-0-0-0*-------|

============================================================================

D :-------------------------------|-------------------------------|
A :-------------------------------|-------------------------------|
F :-------------------------------|-------------------------------|
C :--------------5-------------5--|--------------5----------------|
G :--------5-7-8-----------5-7---8|--------5-7-8-----8------------|
D :0-0-0-0---------0-0-0-0--------|0-0-0-0---------0---0-6-0-3-2-1|

D :-------------------------------|-------------------------------|
A :-------------------------------|-------------------------------|
F :-------------------------------|-------------------------------|
C :--------------5-------------5--|--------------5----------------|
G :--------5-7-8-----------5-7---8|--------5-7-8-----8------------|
D :0-0-0-0---------0-0-0-0--------|0-0-0-0---------0---0-6-0-3-2-1|

============================================================================

D :-------------------------------|-------------------------------|
A :-------------------------------|-------------------------------|
F :-------------------------------|-------------------------------|
C :--------------5-------------5--|--------------5----------------|
G :--------5-7-8-----------5-7---8|--------5-7-8-----8------------|
D :0-0-0-0---------0-0-0-0--------|0-0-0-0---------0---0-6-0-3-2-1|

D :-------------------------------|-------------------------------|
A :-------------------------------|-------------------------------|
F :-------------------------------|-------------------------------|
C :--------------5-------------5--|--------------5----------------|
G :--------5-7-8-----------5-7---8|--------5-7-8-----8------------|
D :0-0-0-0---------0-0-0-0--------|0-0-0-0---------0---0-6-0-3-2-1|

============================================================================

D :----------|
A :----------|
F :----------|
C :5-5*-5-5*-|
G :5-5*-5-5*-|
D :3-3*-3-3*-|

D :----------|
A :----------|
F :----------|
C :5-5*-5-5*-|
G :5-5*-5-5*-|
D :3-3*-3-3*-|

============================================================================

D :---------------------------|------------------------------|
A :---------------------------|------------------------------|
F :---------------------------|------------------------------|
C :2-2-2-5-5-5-5-4-4-4-4-3-3-3|2-2-2-5-5-5-5-4-4-4-4--8--8--8|
G :2-2------------------------|2-2---------------------------|
D :0-0-0-3-3-3-3-2-2-2-2-1-1-1|0-0-0-3-3-3-3-2-2-2-2--6--6--6|

D :---------------------------|------------------------------|
A :---------------------------|------------------------------|
F :---------------------------|------------------------------|
C :2-2-2-5-5-5-5-4-4-4-4-3-3-3|2-2-2-9-9-9-9-8-8-8-8-12-12-12|
G :2-2------------------------|2-2---------------------------|
D :0-0-0-3-3-3-3-2-2-2-2-1-1-1|0-0-0-7-7-7-7-6-6-6-6-10-10-10|

============================================================================

D :---------------------------|-------------------|
A :---------------------------|-------------------|
F :---------------------------|-------------------|
C :2-2-2-5-5-5-5-4-4-4-4-3-3-3|3--6--10--9--6-9-6-|
G :2-2------------------------|3------------------|
D :0-0-0-3-3-3-3-2-2-2-2-1-1-1|1--4---8--7--4-7-4-|

D :---------------------------|-------------------|
A :---------------------------|-------------------|
F :---------------------------|-------------------|
C :2-2-2-5-5-5-5-4-4-4-4-3-3-3|3--6--10--9--6-9-6-|
G :2-2------------------------|3------------------|
D :0-0-0-3-3-3-3-2-2-2-2-1-1-1|1--4---8--7--4-7-4-|

============================================================================

D :---------------------------|------------------------------|
A :---------------------------|------------------------------|
F :---------------------------|------------------------------|
C :2-2-2-5-5-5-5-4-4-4-4-3-3-3|2-2-2-5-5-5-5-4-4-4-4--8--8--8|
G :2-2------------------------|2-2---------------------------|
D :0-0-0-3-3-3-3-2-2-2-2-1-1-1|0-0-0-3-3-3-3-2-2-2-2--6--6--6|

D :---------------------------|------------------------------|
A :---------------------------|------------------------------|
F :---------------------------|------------------------------|
C :2-2-2-5-5-5-5-4-4-4-4-3-3-3|2-2-2-9-9-9-9-8-8-8-8-12-12-12|
G :2-2------------------------|2-2---------------------------|
D :0-0-0-3-3-3-3-2-2-2-2-1-1-1|0-0-0-7-7-7-7-6-6-6-6-10-10-10|

============================================================================

D :---------------------------|----------------|
A :---------------------------|----------------|
F :---------------------------|----------------|
C :2-2-2-5-5-5-5-4-4-4-4-3-3-3|3--6--3--6--3---|
G :2-2------------------------|3-----------3---|
D :0-0-0-3-3-3-3-2-2-2-2-1-1-1|1--4--1--4--1---|

D :---------------------------|----------------|
A :---------------------------|----------------|
F :---------------------------|----------------|
C :2-2-2-5-5-5-5-4-4-4-4-3-3-3|3--6--3--6--3---|
G :2-2------------------------|3-----------3---|
D :0-0-0-3-3-3-3-2-2-2-2-1-1-1|1--4--1--4--1---|

============================================================================

D :----------------|----------------|----------------|----------------|
A :----------------|----------------|----------------|----------------|
F :----------------|----------------|----------------|----------------|
C :----------------|----------------|----------------|----------------|
G :----------------|----------------|----------------|----------------|
D :7-------6-------|3-------2-------|7-------6-------|3-------2-------|

D :----------------|----------------|----------------|----------------|
A :----------------|--------------0-|----------------|--------------0-|
F :----0-------0---|----0-------0---|----0-------0---|----0-------0---|
C :--9---9---8---8-|--5---5---4-----|--9---9---8---8-|--5---5---4-----|
G :----------------|----------------|----------------|----------------|
D :7-------6-------|3-------2-------|7-------6-------|3-------2-------|

============================================================================

D :----------------|-----------------|----------------|------------------|
A :----------------|-----------------|----------------|------------------|
F :----------------|-----------------|7-------9-------|------------------|
C :9-------8-------|-----------------|9-------8-------|-9-------11-------|
G :----------------|10-------9-------|----------------|10--------9-------|
D :7-------6-------|10-------9-------|7-------6-------|10--------9-------|

D :----------------|-----------------|----------------|------------------|
A :----------------|---------------0-|----------------|----------------0-|
F :----0-------0---|-----0-------0---|----0-------0---|-----0--------0---|
C :--9---9---8---8-|---5---5---4-----|--9---9---8---8-|---5---5----4-----|
G :----------------|-----------------|----------------|------------------|
D :7-------6-------|-3-------2-------|7-------6-------|-3--------2-------|

_________________
\(_o)/

123guitartabs.com
Back to top Go down
View user profile http://www.123guitartabs.com/
TheLonging
Moderator
avatar

Posts : 136
Join date : 2008-06-06
Age : 23

PostSubject: Re: D.O.A. Tab- The Haunted   Sat Jun 07, 2008 1:29 am

============================================================================

D :---------------------------|-----------------------|
A :---------------------------|-----------------------|
F :---------------------------|-----------------------|
C :---------------------------|-----------------------|
G :9--------------------------|4-2-2-5-4-4-2----------|
D :------------0-2-3-0-2-3-5-3|--------------6--------|

D :---------------------------|-----------------------|
A :---------------------------|-----------------------|
F :------5--------------------|--------5--------------|
C :------4--------------------|--------4--------------|
G :---------------------------|-----------------------|
D :0-2-2---2-2-0-2-2---2-3-3--|0---2-2-----2-2*-------|

============================================================================

D :------------------14---------------------------------|
A :---------------14----14-------12-12-12-12-11-11-11-11|
F :------------14---------------------------------------|
C :---------16------------------------------------------|
G :---13-16---------------------------------------------|
D :14---------------------------------------------------|

D :-----------------------------------------------------|
A :-----------------------------------------------------|
F :-------------5---------------------------------------|
C :-------------4---------------------------------------|
G :-----------------------------------------------------|
D :-0--2--2-----------2--2-0-2-2--2-----3-----3---------|

============================================================================

D :--------------------------------------------------------------------|
A :12-12-12-12-14-14-14-14-15-15-15-15-14-14-14-14-12-12-12-12-11------|
F :--------------------------------------------------------------------|
C :--------------------------------------------------------------------|
G :--------------------------------------------------------------------|
D :--------------------------------------------------------------------|

D :--------------------------------------------------------------------|
A :--------------------------------------------------------------------|
F :-------------------------5------------------------------------------|
C :-------------------------4------------------------------------------|
G :--------------------------------------------------------------------|
D :-0-----------2-----2-----------------2-----2-----*------------------|

============================================================================

D :-----------------------------|----------------------|
A :*---12----------11-----------|12-----------14-------|
F :----14----------13-----------|14-----------16-------|
C :-----------------------------|----------------------|
G :-----------------------------|----------------------|
D :-----------------------------|----------------------|

D :-----------------------------|----------------------|
A :-----------------------------|----------------------|
F :--------5--------------------|-------5--------------|
C :--------4--------------------|-------4--------------|
G :-----------------------------|----------------------|
D :0-2--2------2-2--0-2-2-2-3-3-|-0-2-2---2-2--*-------|

============================================================================

D :------------------------------------|--------------------|
A :*-----------------------------------|--------------------|
F :*---11-12---9-11-----11-12------9-11|--7--9---7-6--------|
C :---------------------12-14-----11-12|--9-11---9-8--------|
G :------------------------------------|--------------------|
D :------------------------------------|--------------------|

D :------------------------------------|--------------------|
A :------------------------------------|--------------------|
F :----------5-------------------------|-------5------------|
C :----------4-------------------------|-------4------------|
G :------------------------------------|--------------------|
D :0-2--2------2--2-0-2--2----2-3--3---|0-2--2---2-2--------|

============================================================================

D :----------------|-----------------|----------------|-----------------|
A :----------------|-----------------|----------------|-----------------|
F :7-------6-------|-----------------|7-------6-------|-----------------|
C :9-------8-------|-9-------8-------|9-------8-------|-9-------8-------|
G :----------------|10-------9-------|----------------|10-------9-------|
D :----------------|-----------------|----------------|-----------------|

D :----------------|-----------------|----------------|-----------------|
A :----------------|---------------0-|----------------|---------------0-|
F :----0-------0---|-----0-------0---|----0-------0---|-----0-------0---|
C :--9---9---8---8-|---5---5---4-----|--9---9---8---8-|---5---5---4-----|
G :----------------|-5-------4-------|----------------|-5-------4-------|
D :7-------6-------|-3-------2-------|7-------6-------|-3-------2-------|

Accept the tab into the site, submitted it. ;)

_________________
\(_o)/

123guitartabs.com
Back to top Go down
View user profile http://www.123guitartabs.com/
TheLonging
Moderator
avatar

Posts : 136
Join date : 2008-06-06
Age : 23

PostSubject: Re: D.O.A. Tab- The Haunted   Sun Jun 08, 2008 2:23 pm

No one likes this tab? v_v

_________________
\(_o)/

123guitartabs.com
Back to top Go down
View user profile http://www.123guitartabs.com/
numberonejrio
Extreme Poster!
avatar

Posts : 373
Join date : 2008-06-16
Age : 22
Location : You Child Molester!

PostSubject: Re: D.O.A. Tab- The Haunted   Tue Jun 17, 2008 1:16 am

Cool tab ^_^.
Back to top Go down
View user profile http://numberonejrioproductions.co.nr
Sponsored content




PostSubject: Re: D.O.A. Tab- The Haunted   

Back to top Go down
 
D.O.A. Tab- The Haunted
View previous topic View next topic Back to top 
Page 1 of 1
 Similar topics
-
» HAUNTED CHUCK NORRIS DOLL ON EBAY
» Haunted- Release Date
» Haunted Halls 1: Green Hills Sanitarium
» Mystic Diary 2: Haunted Island
» Haunted

Permissions in this forum:You cannot reply to topics in this forum
123GuitarTabs.com :: Music :: Tab Talk-
Jump to: